ISO-10303-21;
HEADER;
/* Generated by software containing ST-Developer
 * from STEP Tools, Inc. (www.steptools.com) 
 */
/* OPTION: using custom schema-name function */

FILE_DESCRIPTION(
/* description */ (''),
/* implementation_level */ '2;1');

FILE_NAME(
/* name */ 'A5W00072460A_001.stp',
/* time_stamp */ '2019-09-12T12:54:18+02:00',
/* author */ (''),
/* organization */ (''),
/* preprocessor_version */ 'ST-DEVELOPER v16.7',
/* originating_system */ 'SIEMENS PLM Software NX 12.0',
/* authorisation */ '');

FILE_SCHEMA (('AUTOMOTIVE_DESIGN { 1 0 10303 214 3 1 1 1 }'));
ENDSEC;

DATA;
#10=SHAPE_REPRESENTATION_RELATIONSHIP('None',
'relationship between A5W00072460A_001-None and A5W00072460A_001-None',
#22,#11);
#11=ADVANCED_BREP_SHAPE_REPRESENTATION('A5W00072460A_001-None',(#32),#397);
#12=SHAPE_DEFINITION_REPRESENTATION(#13,#22);
#13=PRODUCT_DEFINITION_SHAPE('','',#14);
#14=PRODUCT_DEFINITION(' ','',#16,#15);
#15=PRODUCT_DEFINITION_CONTEXT('part definition',#21,'design');
#16=PRODUCT_DEFINITION_FORMATION_WITH_SPECIFIED_SOURCE(' ',' ',#18,
 .NOT_KNOWN.);
#17=PRODUCT_RELATED_PRODUCT_CATEGORY('part','',(#18));
#18=PRODUCT('A5W00072460A_001','A5W00072460A_001',' ',(#19));
#19=PRODUCT_CONTEXT(' ',#21,'mechanical');
#20=APPLICATION_PROTOCOL_DEFINITION('international standard',
'automotive_design',2010,#21);
#21=APPLICATION_CONTEXT(
'core data for automotive mechanical design processes');
#22=SHAPE_REPRESENTATION('A5W00072460A_001-None',(#241),#397);
#23=PRESENTATION_LAYER_ASSIGNMENT('1','Layer 1',(#32));
#24=STYLED_ITEM('',(#25),#32);
#25=PRESENTATION_STYLE_ASSIGNMENT((#26));
#26=SURFACE_STYLE_USAGE(.BOTH.,#27);
#27=SURFACE_SIDE_STYLE('',(#28));
#28=SURFACE_STYLE_FILL_AREA(#29);
#29=FILL_AREA_STYLE('',(#30));
#30=FILL_AREA_STYLE_COLOUR('',#31);
#31=COLOUR_RGB('Light Hard Orange',1.,0.6,0.2);
#32=MANIFOLD_SOLID_BREP('',#33);
#33=CLOSED_SHELL('',(#45,#46,#47,#48,#49,#50,#51,#52,#53,#54,#55,#56,#57,
#58));
#34=CONICAL_SURFACE('',#268,4.73205080756887,15.);
#35=CYLINDRICAL_SURFACE('',#246,8.00000000000001);
#36=CYLINDRICAL_SURFACE('',#252,4.99999999999999);
#37=CYLINDRICAL_SURFACE('',#257,3.99999999999999);
#38=CYLINDRICAL_SURFACE('',#262,5.25000000000001);
#39=FACE_OUTER_BOUND('',#112,.T.);
#40=FACE_OUTER_BOUND('',#127,.T.);
#41=FACE_OUTER_BOUND('',#128,.T.);
#42=FACE_OUTER_BOUND('',#129,.T.);
#43=FACE_OUTER_BOUND('',#130,.T.);
#44=FACE_OUTER_BOUND('',#131,.T.);
#45=ADVANCED_FACE('',(#92,#93),#59,.F.);
#46=ADVANCED_FACE('',(#39),#35,.T.);
#47=ADVANCED_FACE('',(#94,#95),#60,.F.);
#48=ADVANCED_FACE('',(#96,#97,#98),#36,.T.);
#49=ADVANCED_FACE('',(#99,#100,#101),#37,.F.);
#50=ADVANCED_FACE('',(#102,#103),#61,.F.);
#51=ADVANCED_FACE('',(#104,#105),#62,.F.);
#52=ADVANCED_FACE('',(#106,#107),#38,.F.);
#53=ADVANCED_FACE('',(#40),#63,.T.);
#54=ADVANCED_FACE('',(#41),#64,.T.);
#55=ADVANCED_FACE('',(#42),#65,.T.);
#56=ADVANCED_FACE('',(#43),#66,.T.);
#57=ADVANCED_FACE('',(#44),#67,.T.);
#58=ADVANCED_FACE('',(#108,#109),#34,.T.);
#59=PLANE('',#244);
#60=PLANE('',#248);
#61=PLANE('',#259);
#62=PLANE('',#261);
#63=PLANE('',#263);
#64=PLANE('',#264);
#65=PLANE('',#265);
#66=PLANE('',#266);
#67=PLANE('',#267);
#68=LINE('',#340,#80);
#69=LINE('',#345,#81);
#70=LINE('',#347,#82);
#71=LINE('',#353,#83);
#72=LINE('',#357,#84);
#73=LINE('',#362,#85);
#74=LINE('',#370,#86);
#75=LINE('',#375,#87);
#76=LINE('',#386,#88);
#77=LINE('',#387,#89);
#78=LINE('',#389,#90);
#79=LINE('',#390,#91);
#80=VECTOR('',#273,1.);
#81=VECTOR('',#278,1.);
#82=VECTOR('',#279,1.);
#83=VECTOR('',#286,1.);
#84=VECTOR('',#291,1.);
#85=VECTOR('',#294,1.);
#86=VECTOR('',#303,1.);
#87=VECTOR('',#306,1.);
#88=VECTOR('',#321,1.);
#89=VECTOR('',#322,1.);
#90=VECTOR('',#325,1.);
#91=VECTOR('',#326,1.);
#92=FACE_BOUND('',#110,.T.);
#93=FACE_BOUND('',#111,.T.);
#94=FACE_BOUND('',#113,.T.);
#95=FACE_BOUND('',#114,.T.);
#96=FACE_BOUND('',#115,.T.);
#97=FACE_BOUND('',#116,.T.);
#98=FACE_BOUND('',#117,.T.);
#99=FACE_BOUND('',#118,.T.);
#100=FACE_BOUND('',#119,.T.);
#101=FACE_BOUND('',#120,.T.);
#102=FACE_BOUND('',#121,.T.);
#103=FACE_BOUND('',#122,.T.);
#104=FACE_BOUND('',#123,.T.);
#105=FACE_BOUND('',#124,.T.);
#106=FACE_BOUND('',#125,.T.);
#107=FACE_BOUND('',#126,.T.);
#108=FACE_BOUND('',#132,.T.);
#109=FACE_BOUND('',#133,.T.);
#110=EDGE_LOOP('',(#134));
#111=EDGE_LOOP('',(#135,#136));
#112=EDGE_LOOP('',(#137,#138,#139,#140));
#113=EDGE_LOOP('',(#141));
#114=EDGE_LOOP('',(#142,#143));
#115=EDGE_LOOP('',(#144));
#116=EDGE_LOOP('',(#145));
#117=EDGE_LOOP('',(#146,#147,#148,#149));
#118=EDGE_LOOP('',(#150));
#119=EDGE_LOOP('',(#151));
#120=EDGE_LOOP('',(#152,#153,#154,#155));
#121=EDGE_LOOP('',(#156));
#122=EDGE_LOOP('',(#157));
#123=EDGE_LOOP('',(#158));
#124=EDGE_LOOP('',(#159));
#125=EDGE_LOOP('',(#160));
#126=EDGE_LOOP('',(#161));
#127=EDGE_LOOP('',(#162,#163,#164,#165));
#128=EDGE_LOOP('',(#166,#167,#168,#169));
#129=EDGE_LOOP('',(#170,#171,#172,#173));
#130=EDGE_LOOP('',(#174,#175,#176,#177));
#131=EDGE_LOOP('',(#178,#179,#180,#181));
#132=EDGE_LOOP('',(#182));
#133=EDGE_LOOP('',(#183));
#134=ORIENTED_EDGE('',*,*,#203,.T.);
#135=ORIENTED_EDGE('',*,*,#204,.F.);
#136=ORIENTED_EDGE('',*,*,#205,.F.);
#137=ORIENTED_EDGE('',*,*,#206,.F.);
#138=ORIENTED_EDGE('',*,*,#205,.T.);
#139=ORIENTED_EDGE('',*,*,#207,.F.);
#140=ORIENTED_EDGE('',*,*,#208,.F.);
#141=ORIENTED_EDGE('',*,*,#209,.F.);
#142=ORIENTED_EDGE('',*,*,#210,.F.);
#143=ORIENTED_EDGE('',*,*,#208,.T.);
#144=ORIENTED_EDGE('',*,*,#211,.T.);
#145=ORIENTED_EDGE('',*,*,#209,.T.);
#146=ORIENTED_EDGE('',*,*,#212,.F.);
#147=ORIENTED_EDGE('',*,*,#213,.F.);
#148=ORIENTED_EDGE('',*,*,#214,.F.);
#149=ORIENTED_EDGE('',*,*,#215,.F.);
#150=ORIENTED_EDGE('',*,*,#216,.T.);
#151=ORIENTED_EDGE('',*,*,#217,.T.);
#152=ORIENTED_EDGE('',*,*,#218,.F.);
#153=ORIENTED_EDGE('',*,*,#219,.F.);
#154=ORIENTED_EDGE('',*,*,#220,.F.);
#155=ORIENTED_EDGE('',*,*,#221,.F.);
#156=ORIENTED_EDGE('',*,*,#222,.T.);
#157=ORIENTED_EDGE('',*,*,#216,.F.);
#158=ORIENTED_EDGE('',*,*,#223,.T.);
#159=ORIENTED_EDGE('',*,*,#217,.F.);
#160=ORIENTED_EDGE('',*,*,#203,.F.);
#161=ORIENTED_EDGE('',*,*,#223,.F.);
#162=ORIENTED_EDGE('',*,*,#213,.T.);
#163=ORIENTED_EDGE('',*,*,#224,.T.);
#164=ORIENTED_EDGE('',*,*,#221,.T.);
#165=ORIENTED_EDGE('',*,*,#225,.T.);
#166=ORIENTED_EDGE('',*,*,#215,.T.);
#167=ORIENTED_EDGE('',*,*,#226,.T.);
#168=ORIENTED_EDGE('',*,*,#219,.T.);
#169=ORIENTED_EDGE('',*,*,#227,.T.);
#170=ORIENTED_EDGE('',*,*,#212,.T.);
#171=ORIENTED_EDGE('',*,*,#227,.F.);
#172=ORIENTED_EDGE('',*,*,#218,.T.);
#173=ORIENTED_EDGE('',*,*,#224,.F.);
#174=ORIENTED_EDGE('',*,*,#214,.T.);
#175=ORIENTED_EDGE('',*,*,#225,.F.);
#176=ORIENTED_EDGE('',*,*,#220,.T.);
#177=ORIENTED_EDGE('',*,*,#226,.F.);
#178=ORIENTED_EDGE('',*,*,#207,.T.);
#179=ORIENTED_EDGE('',*,*,#204,.T.);
#180=ORIENTED_EDGE('',*,*,#206,.T.);
#181=ORIENTED_EDGE('',*,*,#210,.T.);
#182=ORIENTED_EDGE('',*,*,#211,.F.);
#183=ORIENTED_EDGE('',*,*,#222,.F.);
#184=VERTEX_POINT('',#339);
#185=VERTEX_POINT('',#341);
#186=VERTEX_POINT('',#342);
#187=VERTEX_POINT('',#346);
#188=VERTEX_POINT('',#348);
#189=VERTEX_POINT('',#352);
#190=VERTEX_POINT('',#356);
#191=VERTEX_POINT('',#358);
#192=VERTEX_POINT('',#359);
#193=VERTEX_POINT('',#361);
#194=VERTEX_POINT('',#363);
#195=VERTEX_POINT('',#367);
#196=VERTEX_POINT('',#369);
#197=VERTEX_POINT('',#371);
#198=VERTEX_POINT('',#372);
#199=VERTEX_POINT('',#374);
#200=VERTEX_POINT('',#376);
#201=VERTEX_POINT('',#380);
#202=VERTEX_POINT('',#383);
#203=EDGE_CURVE('',#184,#184,#228,.T.);
#204=EDGE_CURVE('',#185,#186,#68,.T.);
#205=EDGE_CURVE('',#186,#185,#229,.T.);
#206=EDGE_CURVE('',#186,#187,#69,.T.);
#207=EDGE_CURVE('',#188,#185,#70,.T.);
#208=EDGE_CURVE('',#187,#188,#230,.T.);
#209=EDGE_CURVE('',#189,#189,#231,.T.);
#210=EDGE_CURVE('',#187,#188,#71,.T.);
#211=EDGE_CURVE('',#190,#190,#232,.T.);
#212=EDGE_CURVE('',#191,#192,#72,.T.);
#213=EDGE_CURVE('',#193,#191,#233,.T.);
#214=EDGE_CURVE('',#194,#193,#73,.T.);
#215=EDGE_CURVE('',#192,#194,#234,.T.);
#216=EDGE_CURVE('',#195,#195,#235,.T.);
#217=EDGE_CURVE('',#196,#196,#236,.T.);
#218=EDGE_CURVE('',#197,#198,#74,.T.);
#219=EDGE_CURVE('',#199,#197,#237,.T.);
#220=EDGE_CURVE('',#200,#199,#75,.T.);
#221=EDGE_CURVE('',#198,#200,#238,.T.);
#222=EDGE_CURVE('',#201,#201,#239,.T.);
#223=EDGE_CURVE('',#202,#202,#240,.T.);
#224=EDGE_CURVE('',#191,#198,#76,.T.);
#225=EDGE_CURVE('',#200,#193,#77,.T.);
#226=EDGE_CURVE('',#194,#199,#78,.T.);
#227=EDGE_CURVE('',#197,#192,#79,.T.);
#228=CIRCLE('',#242,5.25000000000001);
#229=CIRCLE('',#243,8.00000000000001);
#230=CIRCLE('',#245,8.00000000000001);
#231=CIRCLE('',#247,5.);
#232=CIRCLE('',#249,4.99999999999999);
#233=CIRCLE('',#250,4.99999999999999);
#234=CIRCLE('',#251,4.99999999999999);
#235=CIRCLE('',#253,3.99999999999999);
#236=CIRCLE('',#254,4.);
#237=CIRCLE('',#255,3.99999999999999);
#238=CIRCLE('',#256,3.99999999999999);
#239=CIRCLE('',#258,4.73205080756887);
#240=CIRCLE('',#260,5.25);
#241=AXIS2_PLACEMENT_3D('',#337,#269,#270);
#242=AXIS2_PLACEMENT_3D('',#338,#271,#272);
#243=AXIS2_PLACEMENT_3D('',#343,#274,#275);
#244=AXIS2_PLACEMENT_3D('',#344,#276,#277);
#245=AXIS2_PLACEMENT_3D('',#349,#280,#281);
#246=AXIS2_PLACEMENT_3D('',#350,#282,#283);
#247=AXIS2_PLACEMENT_3D('',#351,#284,#285);
#248=AXIS2_PLACEMENT_3D('',#354,#287,#288);
#249=AXIS2_PLACEMENT_3D('',#355,#289,#290);
#250=AXIS2_PLACEMENT_3D('',#360,#292,#293);
#251=AXIS2_PLACEMENT_3D('',#364,#295,#296);
#252=AXIS2_PLACEMENT_3D('',#365,#297,#298);
#253=AXIS2_PLACEMENT_3D('',#366,#299,#300);
#254=AXIS2_PLACEMENT_3D('',#368,#301,#302);
#255=AXIS2_PLACEMENT_3D('',#373,#304,#305);
#256=AXIS2_PLACEMENT_3D('',#377,#307,#308);
#257=AXIS2_PLACEMENT_3D('',#378,#309,#310);
#258=AXIS2_PLACEMENT_3D('',#379,#311,#312);
#259=AXIS2_PLACEMENT_3D('',#381,#313,#314);
#260=AXIS2_PLACEMENT_3D('',#382,#315,#316);
#261=AXIS2_PLACEMENT_3D('',#384,#317,#318);
#262=AXIS2_PLACEMENT_3D('',#385,#319,#320);
#263=AXIS2_PLACEMENT_3D('',#388,#323,#324);
#264=AXIS2_PLACEMENT_3D('',#391,#327,#328);
#265=AXIS2_PLACEMENT_3D('',#392,#329,#330);
#266=AXIS2_PLACEMENT_3D('',#393,#331,#332);
#267=AXIS2_PLACEMENT_3D('',#394,#333,#334);
#268=AXIS2_PLACEMENT_3D('',#395,#335,#336);
#269=DIRECTION('',(0.,0.,1.));
#270=DIRECTION('',(1.,0.,0.));
#271=DIRECTION('',(-5.32907051820075E-17,-1.,0.));
#272=DIRECTION('',(1.,0.,0.));
#273=DIRECTION('',(-1.,5.32907051820075E-17,0.));
#274=DIRECTION('',(-5.32907051820075E-17,-1.,0.));
#275=DIRECTION('',(1.,0.,0.));
#276=DIRECTION('',(-5.32907051820075E-17,-1.,0.));
#277=DIRECTION('',(1.,-5.20417042793042E-17,0.));
#278=DIRECTION('',(-5.32907051820075E-17,-1.,0.));
#279=DIRECTION('',(5.32907051820075E-17,1.,0.));
#280=DIRECTION('',(-5.32907051820075E-17,-1.,0.));
#281=DIRECTION('',(1.,0.,0.));
#282=DIRECTION('',(-5.32907051820075E-17,-1.,0.));
#283=DIRECTION('',(1.,0.,0.));
#284=DIRECTION('',(-5.32907051820075E-17,-1.,0.));
#285=DIRECTION('',(1.,0.,0.));
#286=DIRECTION('',(1.,-5.32907051820075E-17,0.));
#287=DIRECTION('',(5.32907051820075E-17,1.,0.));
#288=DIRECTION('',(-1.,5.20417042793042E-17,0.));
#289=DIRECTION('',(5.32907051820074E-17,1.,0.));
#290=DIRECTION('',(-1.,4.33680868994202E-17,0.));
#291=DIRECTION('',(-5.32907051820075E-17,-1.,0.));
#292=DIRECTION('',(-1.04083408558609E-15,-1.,0.));
#293=DIRECTION('',(1.,-1.04083408558609E-15,0.));
#294=DIRECTION('',(5.32907051820075E-17,1.,0.));
#295=DIRECTION('',(-1.30104260698261E-16,1.,0.));
#296=DIRECTION('',(-1.,-8.67361737988405E-17,0.));
#297=DIRECTION('',(-5.32907051820075E-17,-1.,0.));
#298=DIRECTION('',(1.,0.,0.));
#299=DIRECTION('',(-5.32907051820075E-17,-1.,0.));
#300=DIRECTION('',(1.,-5.32907051820075E-17,0.));
#301=DIRECTION('',(5.32907051820075E-17,1.,0.));
#302=DIRECTION('',(1.,0.,0.));
#303=DIRECTION('',(5.32907051820075E-17,1.,0.));
#304=DIRECTION('',(1.30104260698261E-16,-1.,0.));
#305=DIRECTION('',(-1.,-1.08420217248551E-16,0.));
#306=DIRECTION('',(-5.32907051820075E-17,-1.,0.));
#307=DIRECTION('',(1.04083408558609E-15,1.,0.));
#308=DIRECTION('',(1.,-8.67361737988405E-16,0.));
#309=DIRECTION('',(-5.32907051820075E-17,-1.,0.));
#310=DIRECTION('',(1.,0.,0.));
#311=DIRECTION('',(-5.32907051820075E-17,-1.,0.));
#312=DIRECTION('',(-1.,5.32907051820075E-17,0.));
#313=DIRECTION('',(5.32907051820075E-17,1.,0.));
#314=DIRECTION('',(-1.,5.32907051820075E-17,0.));
#315=DIRECTION('',(5.32907051820075E-17,1.,0.));
#316=DIRECTION('',(1.,0.,0.));
#317=DIRECTION('',(-5.32907051820075E-17,-1.,0.));
#318=DIRECTION('',(1.,-5.20417042793042E-17,0.));
#319=DIRECTION('',(-5.32907051820075E-17,-1.,0.));
#320=DIRECTION('',(1.,0.,0.));
#321=DIRECTION('',(1.,-1.04083408558608E-15,0.));
#322=DIRECTION('',(1.,-1.04083408558608E-15,0.));
#323=DIRECTION('',(-1.04083408558609E-15,-1.,0.));
#324=DIRECTION('',(1.,-1.04083408558608E-15,0.));
#325=DIRECTION('',(-1.,-1.30104260698261E-16,0.));
#326=DIRECTION('',(-1.,-1.30104260698261E-16,0.));
#327=DIRECTION('',(-1.30104260698261E-16,1.,0.));
#328=DIRECTION('',(-1.,-1.30104260698261E-16,0.));
#329=DIRECTION('',(0.,0.,1.));
#330=DIRECTION('',(1.,0.,0.));
#331=DIRECTION('',(0.,0.,1.));
#332=DIRECTION('',(1.,0.,0.));
#333=DIRECTION('',(0.,0.,1.));
#334=DIRECTION('',(1.,0.,0.));
#335=DIRECTION('',(5.32907051820074E-17,1.,0.));
#336=DIRECTION('',(-1.,0.,0.));
#337=CARTESIAN_POINT('',(0.,0.,0.));
#338=CARTESIAN_POINT('',(1.77635683940025E-15,25.,0.));
#339=CARTESIAN_POINT('',(5.25000000000001,25.,0.));
#340=CARTESIAN_POINT('',(1.77635683940025E-15,25.,7.));
#341=CARTESIAN_POINT('',(3.87298334620744,25.,7.));
#342=CARTESIAN_POINT('',(-3.87298334620743,25.,7.));
#343=CARTESIAN_POINT('',(1.77635683940025E-15,25.,0.));
#344=CARTESIAN_POINT('',(1.77635683940025E-15,25.,0.));
#345=CARTESIAN_POINT('',(-3.87298334620743,25.,7.));
#346=CARTESIAN_POINT('',(-3.87298334620743,20.5,7.));
#347=CARTESIAN_POINT('',(3.87298334620744,25.,7.));
#348=CARTESIAN_POINT('',(3.87298334620744,20.5,7.));
#349=CARTESIAN_POINT('',(1.53654866608122E-15,20.5,0.));
#350=CARTESIAN_POINT('',(1.77635683940025E-15,25.,0.));
#351=CARTESIAN_POINT('',(1.53654866608122E-15,20.5,0.));
#352=CARTESIAN_POINT('',(5.,20.5,0.));
#353=CARTESIAN_POINT('',(8.00000000000001,20.5,7.));
#354=CARTESIAN_POINT('',(8.00000000000001,20.5,0.));
#355=CARTESIAN_POINT('',(4.9737991503207E-16,1.,0.));
#356=CARTESIAN_POINT('',(-4.99999999999999,1.,0.));
#357=CARTESIAN_POINT('',(-4.33012701892218,25.,2.5));
#358=CARTESIAN_POINT('',(-4.33012701892219,15.5,2.5));
#359=CARTESIAN_POINT('',(-4.33012701892219,3.49999999999999,2.5));
#360=CARTESIAN_POINT('',(1.27009514017118E-15,15.5,0.));
#361=CARTESIAN_POINT('',(4.33012701892219,15.5,2.5));
#362=CARTESIAN_POINT('',(4.33012701892219,25.,2.5));
#363=CARTESIAN_POINT('',(4.33012701892219,3.5,2.5));
#364=CARTESIAN_POINT('',(6.30606677987089E-16,3.5,0.));
#365=CARTESIAN_POINT('',(1.77635683940025E-15,25.,0.));
#366=CARTESIAN_POINT('',(4.44089209850063E-16,0.,0.));
#367=CARTESIAN_POINT('',(3.99999999999999,-2.1316282072803E-16,0.));
#368=CARTESIAN_POINT('',(1.61648472385423E-15,22.,0.));
#369=CARTESIAN_POINT('',(4.,22.,0.));
#370=CARTESIAN_POINT('',(-3.12249899919919,25.,2.5));
#371=CARTESIAN_POINT('',(-3.12249899919919,3.49999999999999,2.5));
#372=CARTESIAN_POINT('',(-3.12249899919919,15.5,2.5));
#373=CARTESIAN_POINT('',(6.30606677987089E-16,3.5,0.));
#374=CARTESIAN_POINT('',(3.12249899919919,3.5,2.5));
#375=CARTESIAN_POINT('',(3.12249899919919,25.,2.5));
#376=CARTESIAN_POINT('',(3.12249899919919,15.5,2.5));
#377=CARTESIAN_POINT('',(1.27009514017118E-15,15.5,0.));
#378=CARTESIAN_POINT('',(1.77635683940025E-15,25.,0.));
#379=CARTESIAN_POINT('',(4.44089209850063E-16,1.33226762955019E-16,0.));
#380=CARTESIAN_POINT('',(-4.73205080756887,3.85401087447452E-16,0.));
#381=CARTESIAN_POINT('',(4.99999999999999,-1.33226762955018E-16,0.));
#382=CARTESIAN_POINT('',(1.61648472385423E-15,22.,0.));
#383=CARTESIAN_POINT('',(5.25,22.,0.));
#384=CARTESIAN_POINT('',(4.,22.,0.));
#385=CARTESIAN_POINT('',(1.77635683940025E-15,25.,0.));
#386=CARTESIAN_POINT('',(0.,15.5,2.5));
#387=CARTESIAN_POINT('',(0.,15.5,2.5));
#388=CARTESIAN_POINT('',(0.,15.5,10.));
#389=CARTESIAN_POINT('',(5.32907051820075E-15,3.5,2.5));
#390=CARTESIAN_POINT('',(5.32907051820075E-15,3.5,2.5));
#391=CARTESIAN_POINT('',(5.32907051820075E-15,3.5,10.));
#392=CARTESIAN_POINT('',(0.,0.,2.5));
#393=CARTESIAN_POINT('',(0.,0.,2.5));
#394=CARTESIAN_POINT('',(0.,0.,7.));
#395=CARTESIAN_POINT('',(4.44089209850063E-16,0.,0.));
#396=MECHANICAL_DESIGN_GEOMETRIC_PRESENTATION_REPRESENTATION('',(#24),#397);
#397=(
GEOMETRIC_REPRESENTATION_CONTEXT(3)
GLOBAL_UNCERTAINTY_ASSIGNED_CONTEXT((#398))
GLOBAL_UNIT_ASSIGNED_CONTEXT((#404,#400,#399))
REPRESENTATION_CONTEXT('A5W00072460A_001','TOP_LEVEL_ASSEMBLY_PART')
);
#398=UNCERTAINTY_MEASURE_WITH_UNIT(LENGTH_MEASURE(2.E-5),#404,
'DISTANCE_ACCURACY_VALUE','Maximum Tolerance applied to model');
#399=(
NAMED_UNIT(*)
SI_UNIT($,.STERADIAN.)
SOLID_ANGLE_UNIT()
);
#400=(
CONVERSION_BASED_UNIT('DEGREE',#402)
NAMED_UNIT(#401)
PLANE_ANGLE_UNIT()
);
#401=DIMENSIONAL_EXPONENTS(0.,0.,0.,0.,0.,0.,0.);
#402=PLANE_ANGLE_MEASURE_WITH_UNIT(PLANE_ANGLE_MEASURE(0.0174532925),#403);
#403=(
NAMED_UNIT(*)
PLANE_ANGLE_UNIT()
SI_UNIT($,.RADIAN.)
);
#404=(
LENGTH_UNIT()
NAMED_UNIT(*)
SI_UNIT(.MILLI.,.METRE.)
);
ENDSEC;
END-ISO-10303-21;
